-----------------------------------------------------------------------------------------------------------------------------

Sapam informa:


Realizando reparación de fuga de agua en calle José Maria Santiago esquina con calle Francisco León.

--------------------------------------------------------------------------------------------------------------------------
3-03-17
Sapam informa:


 Que debido a un desperfecto eléctrico en el equipo de bombeo en la almolonga 2, que suministra agua a las comaleras, parte de San Diego ( Pacheco luna), y parte de San Antonio
( calle González boca negra), se verán afectadas por falta de agua. Esperando restablecer el servicio lo más pronto posible. Por su comprensión gracias.

----------------------------------------------------
28-02-17
Sapam informa:


Reparación de fuga de agua en calle chiapa de corzo. Barrio del Cerrillo.
  

--------------------------------------------------------------------------------------------------------------------------
26-02-17
Sapam informa:


Realizando excavación para Monitoreo de línea de agua hacia colonia Valle de zacatlan. Para mejorar el suministro de agua.

   
- Reparación de fuga de agua en línea de 2 1/2 pulgadas de diámetro de la col.20 de NOVIEMBRE

----------------------------------------------------------------------------------------------------------

26-02-17
Sapam informa:

Que debido a trabajos de reparación de fuga de agua en la calle Diego Duguelay se estará afectando el tránsito vehicular en Ma. Adelina flores y Real de Guadalupe por lo que se recomienda tomar sus precauciones

-------------------------------------------------------
20-02-17
Sapam informa:


 Bacheo en el callejon guadalupano esq. prol. Insurgentes
  

 

-------------------------------------------------------------------------------------------------------------------------------------------------2-02-17
Sapam informa:



Que debido a la reparación de fuga en carretera a Chamula, ocasionado por gasolinera, se verán afectadas por falta de agua las siguientes colonias:
Retiro San Martín, la Era, Vergel, San José , FETSE 2000 y colonia Azteca, esperando reestablecer el servicio lo mas pronto posible.

---------------------------------------------------------------------------------------------------------------------------------------------------------------------------31-01-17


Sapam informa:

Que debido a mantenimiento en el equipo de bombeo de 25hp. de Real del monte se verá afectada por falta de agua la colonia Real del monte los días 31 de enero, 01 y 02 de febrero. Por su comprensión gracias.
-------------------------------------------------------------------------------------------------------------------------------------------------------------------------18-01-17


Sapam informa:
 
Que se encuentra realizando trabajos de reparación del colector sanitario ubicado en explanada del Carmen.
   

 

----------------------------------------------------------------------------------------------------------------------------------------------------------------------11-01-17
Sapam informa: 


Que debido a un apagón por parte de la Comisión Federal de Electricidad, se suspendió el bombeo en el pozo de convivencia infantil, afectando el suministro del vital líquido a las siguientes colonias:  San Vicente periférico norte poniente y huitepec.
Esperando restablecer el servicio lo más pronto posible

-------------------------------------------------------------------------------------------------------------------------------------------------------------------------10-01-17
Sapam informa: 

Que quedó reparada fuga de agua en calle Baja California esquina con calle Yucatán, Barrio de San Ramón.

Por su comprensión !!Gracias!!
---------------------------------------------------------------------------------------------------------------------------------------------------------------------------9-01-17

Sapam informa:
Que el día de mañana martes 10 de enero del presente se estarán realizando trabajos de bacheo en la calle Josefa Ortiz de Domínguez entre las calles Julio M. Corzo y Ramón corona por tal motivo se verá afectado el paso vehicular a partir de las 8:00 a.m hasta las 3:00p. m. Por su comprensión gracias.


------------------------------------------------------------------------------------------------------------------------------------------------------------------------9-01-17
Sapam informa :
    
Que debido a reparación de fuga en tubo mayor en la calle baja California esquina con calle Yucatan se están viendo afectadas por falta de agua las siguientes colonias: san Ramón, Bismarck y col. Echeverria. Cabe destacar que personal de este organismo operador se encuentra trabajando en dicha fuga. Esperando restablecer el servicio lo más pronto posible.
Por su comprensión gracias.

----------------------------------------------------------
5-01-17

Sapam informa:

 

 Que debido mantenimiento de las válvulas de control de la colonia artículo 115 se verá afectada dicha colonia en el suministro del vital líquido Esperando restablecer el servicio a las 11:00 A.M. del día 6 de enero 

!!!Por su comprensión gracias!!

 
-----------------------------------------------------------------------------------------------------------------------------19-12-16

SAPAM INFORMA:


Que continuamos realizando trabajos en Prolongación Insurgentes esq. Cjón. Guadalupano para amarre de línea en la línea de 6° y reforzar la colonia Vista Hermosa
   

 
Realizando desazolve en calle Insurgentes frente a la terminal OCC.
 

--------------------------------------------------------------------------------------------------------------------------------6-12-16

SAPAM INFORMA:
 
Que debido a reparación en el equipo de bombeo de 40hp.de la explanada del Carmen se verán afectadas por falta de agua las siguientes Colonias: explanada del Carmen, la pradera, el bosque, fracc. Esperanza, San Francisco,los ángeles y bugambilias. Esperando restablecer el servicio lo más pronto posible. Por su comprensión gracias:

        
 Sapam informa que debido a reparación de fuga de agua en el estacionamiento de Merposur se verán afectadas por falta de agua las siguientes colonias: Villa mayor, San diego parte oriente,Jardines de vista hermosa, San juan de los lagos, Las rosas,Altejar,Santa martha,Ciudad real, Los choferes,Parque de feria, Sector salud y jardines del sur,Relicario,Deportivo san cristobal,Los pinos,Los doctores,Monte de los olivos,Mercaltos,Maestros de mexico, Maria auxiliadora ( una seccion),Fraccionamiento arco de vista hermosa,Riconada vista hermosa,Montes azules,Santuario,Colonia el sumidero,Las aguilas,Colonia 5 de marzo,Fraccionameinto santuario,Las minas I,II y III.  Esperando restablecer el servicio lo más pronto posible. Por su comprensión Gracias


------------------------------------------------------------------------------------------------------------------------
-25-11-16


SAPAM INFORMA:


Que quedó reparada la falla eléctrica en el tablero de control de la Bomba de 75 hp. En el bombeo de María Auxiliadora, quedando restablecido el servicio de manera normal.

Por su comprensión Gracias

-----------------------------------------------------------------------------------------------------------------------------


-23-11-16

SAPAM INFORMA:


Continuando con los trabajos de instalación de tubería sustituyendo los tubos de concreto de drenaje en cobach plantel 11



23/11/16

Reparación de fuga en calle Ramón larrainzar a la altura del num 100.


   
-----------------------------------------------------------------------------------------------------------------------------


-09-11-16


SAPAM INFORMA:

Sondeo en línea de agua de periférico Sur Pte. y entrada a corralito, para mejorar el sumunistro del vital líquido.
Excavación para la construcción de un pozo de visita en periférico  Norte junto al manantial la hormiga.
  



-------------------------------------------------------------------------------------------------------------------------------26-10-16


SAPAM INFORMA:

Que debido a trabajos de mantenimiento y reparación en la red de distribución por parte de empresa que realiza pavimentación de calle Álvaro Obregón de la colonia Revolución Mexicana y Ejército Nacional del barrio de Guadalupe, se suspenderá de manera temporal el suministro del vital líquido a las siguientes colonias: Cerrillo, Guadalupe, Revolución Mexicana y zona del mercado municipal.
Esperando restablecer el servicio lo más pronto posible.

!!! Por su comprensión gracias !!!




------------------------------------------------------------------------------------------------------------------------------20-10-16


SAPAM INFORMA:

Que continúan los trabajos de mantenimiento correctivo del equipo de rebombeo  de María Auxiliadora, por lo cual se ven afectadas por baja presión las siguientes colonias:
Col. Maya, Mirador, Lomas del Sur, Jardines del Sur Artículo 115, y Prolongación Insurgentes

    

Esperando restablecer el servicio de manera normal lo más pronto posible,

!!!Por su comprensión gracias!!!


--------------------------------------------------------------------------------------------------------------------------------17-10-16

SAPAM INFORMA:

Que por fallas en el equipo de bombeo de María Auxiliadora  de 40 hp. se verán afectadas por baja presión las siguientes colonias:
col. Maya, Mirador, Lomas del Sur,  Artículo 115,   Prolongación insurgentes.

Esperando restablecer el servicio de manera normal lo más pronto posible.


Por su comprensión gracias.



------------------------------------------------------------------------------------------------------------------------------------------------------------  ---------

-29-09-16

SAPAM INFORMA:

SAPAM informa que debido a una ruptura en línea mayor del sistema bombeo peje de oro ocasionada por una constructora que realiza trabajos de pavimentación en la col anexo 31 de marzo se verán afectadas las con falta de agua las Col anexo 31 de marzo revolución mexicanos el cerrillo 14 de septiembre y anexas.esperando que se repare lo más pronto posible

-----------------------------------------------------------------------------------------------------------------
-13-09-16


SAPAM INFORMA:

Sapam informa que debido a reparación en el equipo de bombeo de 60hp. del sistema la almolonga, continua la  baja presión en la zona de: mexicanos, la isla, la merced, parte alta del barrio de Guadalupe, zona centro y el cerrillo. esperando restablecer el  servicio lo mas pronto posible.

!!!Por su comprensión gracias.¡¡¡



-----------------------------------------------------------------------------------------------------------------------

-9-09-16


SAPAM INFORMA:


Que debido a reparación en el equipo de bombeo de 60hp. del sistema la almolonga, tendremos baja presión  en la zona de: Mexicanos, la isla, la Merced, parte del barrio de Guadalupe, zona centro y el cerrillo, restableciendo el, servicio lo mas pronto posible

Por su comprensión ¡¡ Gracias !!


-----------------------------------------------------------------------------------------------------------------------

-7-09-16

SAPAM INFORMA:

Que se concluyeron las trabajos de mantenimiento del rebombeo la era, restableciendo el servicio de manera normal.


  

Por su comprensión 
¡¡¡Gracias !!!


------------------------------------------------------------------------------------------------------------------------------25-08-16

SAPAM INFORMA:


Que se encuentra realizando amarre de lìnea en el eje vìal 2 para mejorar el suministro de agua a la col. 5 de marzo.



      
                

Disculpe las molestias que esto le ocasiona.
-------------------------------------------------------------------------------------------------------------------------
23-08-2016.

SAPAM INFORMA:

La rehabilitaciòn del drenaje sanitario, ya que se encontraba colapsada la tuberìa en el clector de la Calle la Raza esquina Revoluciòn , en el barrio de Fàtima,
SAPAM TRABAJANDO.





Disculpe las molestias que esto le ocasiona, por su comprensión gracias.

------------------------------------------------------------------------

9-08-16
 
Sapam informa: Que en estos momentos se realiza la instalación del equipo de bombeo del pozo profundo de convivencia infantil, una vez instalado se procederá a restablecer el servicio de agua de manera normal a las siguientes colonias: San Vicente, periférico sur poniente, Insurgentes, Huitepec y maestros  jubilados.
Así mismo, realizando amarre de línea en calle San Juan Bosco del barrio de María Auxiliadora para mejorar el suministro de agua.
         disculpe las molestias que esto le ocasiona, por su comprensión gracias.

                 


                
 
© 2017 Foro Chiapaneco